  0
SECTION
  2
HEADER
  9
$ACADVER
  1
AC1009
  9
$INSBASE
 10
131.9396737228374
 20
76.76687572283742
 30
0.0
  9
$EXTMIN
 10
131.9396737228374
 20
76.76687572283742
 30
0.0
  9
$EXTMAX
 10
200.2563068510987
 20
147.2810153504143
 30
0.0
  9
$LIMMIN
 10
0.0
 20
0.0
  9
$LIMMAX
 10
420.0
 20
297.0
  9
$ORTHOMODE
 70
     1
  9
$REGENMODE
 70
     1
  9
$FILLMODE
 70
     1
  9
$QTEXTMODE
 70
     0
  9
$MIRRTEXT
 70
     0
  9
$DRAGMODE
 70
     2
  9
$LTSCALE
 40
1.0
  9
$OSMODE
 70
    32
  9
$ATTMODE
 70
     2
  9
$TEXTSIZE
 40
3.5
  9
$TRACEWID
 40
0.1
  9
$TEXTSTYLE
  7
STANDARD
  9
$CLAYER
  8
ITEM_HILFE
  9
$CELTYPE
  6
BYLAYER
  9
$CECOLOR
 62
   256
  9
$DIMSCALE
 40
1.0
  9
$DIMASZ
 40
2.0
  9
$DIMEXO
 40
1.0
  9
$DIMDLI
 40
8.0
  9
$DIMRND
 40
0.0
  9
$DIMDLE
 40
0.0
  9
$DIMEXE
 40
2.0
  9
$DIMTP
 40
0.1
  9
$DIMTM
 40
0.1
  9
$DIMTXT
 40
3.5
  9
$DIMCEN
 40
2.0
  9
$DIMTSZ
 40
0.0
  9
$DIMTOL
 70
     0
  9
$DIMLIM
 70
     0
  9
$DIMTIH
 70
     0
  9
$DIMTOH
 70
     0
  9
$DIMSE1
 70
     0
  9
$DIMSE2
 70
     0
  9
$DIMTAD
 70
     1
  9
$DIMZIN
 70
     8
  9
$DIMBLK
  1

  9
$DIMASO
 70
     1
  9
$DIMSHO
 70
     1
  9
$DIMPOST
  1

  9
$DIMAPOST
  1

  9
$DIMALT
 70
     0
  9
$DIMALTD
 70
     2
  9
$DIMALTF
 40
25.39999999999999
  9
$DIMLFAC
 40
1.0
  9
$DIMTOFL
 70
     1
  9
$DIMTVP
 40
0.0
  9
$DIMTIX
 70
     0
  9
$DIMSOXD
 70
     0
  9
$DIMSAH
 70
     0
  9
$DIMBLK1
  1

  9
$DIMBLK2
  1

  9
$DIMSTYLE
  2
*UNNAMED
  9
$DIMCLRD
 70
     0
  9
$DIMCLRE
 70
     0
  9
$DIMCLRT
 70
     0
  9
$DIMTFAC
 40
1.0
  9
$DIMGAP
 40
0.09
  9
$LUNITS
 70
     2
  9
$LUPREC
 70
     3
  9
$SKETCHINC
 40
0.1
  9
$FILLETRAD
 40
20.0
  9
$AUNITS
 70
     0
  9
$AUPREC
 70
     1
  9
$MENU
  1

  9
$ELEVATION
 40
0.0
  9
$PELEVATION
 40
0.0
  9
$THICKNESS
 40
0.0
  9
$LIMCHECK
 70
     0
  9
$BLIPMODE
 70
     0
  9
$CHAMFERA
 40
5.0
  9
$CHAMFERB
 40
5.0
  9
$SKPOLY
 70
     1
  9
$TDCREATE
 40
2448768.412307986
  9
$TDUPDATE
 40
2449393.432305555
  9
$TDINDWG
 40
0.0300870370
  9
$TDUSRTIMER
 40
0.0300870370
  9
$USRTIMER
 70
     1
  9
$ANGBASE
 50
0.0
  9
$ANGDIR
 70
     0
  9
$PDMODE
 70
     3
  9
$PDSIZE
 40
0.0
  9
$PLINEWID
 40
0.0
  9
$COORDS
 70
     2
  9
$SPLFRAME
 70
     0
  9
$SPLINETYPE
 70
     6
  9
$SPLINESEGS
 70
     8
  9
$ATTDIA
 70
     1
  9
$ATTREQ
 70
     1
  9
$HANDLING
 70
     0
  9
$HANDSEED
  5
2BD
  9
$SURFTAB1
 70
     6
  9
$SURFTAB2
 70
     6
  9
$SURFTYPE
 70
     6
  9
$SURFU
 70
     6
  9
$SURFV
 70
     6
  9
$UCSNAME
  2

  9
$UCSORG
 10
0.0
 20
0.0
 30
0.0
  9
$UCSXDIR
 10
1.0
 20
0.0
 30
0.0
  9
$UCSYDIR
 10
0.0
 20
1.0
 30
0.0
  9
$PUCSNAME
  2

  9
$PUCSORG
 10
0.0
 20
0.0
 30
0.0
  9
$PUCSXDIR
 10
1.0
 20
0.0
 30
0.0
  9
$PUCSYDIR
 10
0.0
 20
1.0
 30
0.0
  9
$USERI1
 70
     0
  9
$USERI2
 70
     3
  9
$USERI3
 70
    15
  9
$USERI4
 70
     0
  9
$USERI5
 70
     0
  9
$USERR1
 40
1.0
  9
$USERR2
 40
1.0
  9
$USERR3
 40
0.0
  9
$USERR4
 40
1.0
  9
$USERR5
 40
0.0
  9
$WORLDVIEW
 70
     5
  9
$SHADEDGE
 70
     3
  9
$SHADEDIF
 70
    70
  9
$TILEMODE
 70
     1
  9
$MAXACTVP
 70
    16
  9
$PINSBASE
 10
0.0
 20
0.0
 30
0.0
  9
$PLIMCHECK
 70
     0
  9
$PEXTMIN
 10
1.000000000000000E+20
 20
1.000000000000000E+20
 30
1.000000000000000E+20
  9
$PEXTMAX
 10
-1.000000000000000E+20
 20
-1.000000000000000E+20
 30
-1.000000000000000E+20
  9
$PLIMMIN
 10
0.0
 20
0.0
  9
$PLIMMAX
 10
12.0
 20
9.0
  9
$UNITMODE
 70
     0
  9
$VISRETAIN
 70
     0
  9
$PLINEGEN
 70
     0
  9
$PSLTSCALE
 70
     0
  9
$TREEDEPTH
 70
  3020
  9
$DWGCODEPAGE
  3
undefined
  0
ENDSEC
  0
SECTION
  2
TABLES
  0
TABLE
  2
VPORT
 70
     2
  0
VPORT
  2
*ACTIVE
 70
     0
 10
0.0
 20
0.0
 11
1.0
 21
1.0
 12
180.2624707620564
 22
114.6470344188354
 13
0.0
 23
0.0
 14
1.0
 24
1.0
 15
10.0
 25
10.0
 16
0.0
 26
0.0
 36
1.0
 17
0.0
 27
0.0
 37
0.0
 40
75.76031739199601
 41
1.275675675675675
 42
50.0
 43
0.0
 44
0.0
 50
0.0
 51
0.0
 71
     0
 72
   100
 73
     1
 74
     0
 75
     0
 76
     0
 77
     0
 78
     0
  0
ENDTAB
  0
TABLE
  2
LTYPE
 70
     4
  0
LTYPE
  2
CONTINUOUS
 70
    64
  3
Solid line
 72
    65
 73
     0
 40
0.0
  0
LTYPE
  2
GEN
 70
    64
  3
----------------------
 72
    65
 73
     2
 40
10000000000.0
 49
0.0
 49
10000000000.0
  0
LTYPE
  2
ITEM-STRICH
 70
    64
  3
- - - - -
 72
    65
 73
     2
 40
1.5
 49
1.2
 49
-0.3
  0
LTYPE
  2
ITEM-STRICHPUNKT
 70
    64
  3
__ . __ . __
 72
    65
 73
     4
 40
3.599999999999999
 49
2.399999999999999
 49
-0.6
 49
0.0
 49
-0.6
  0
ENDTAB
  0
TABLE
  2
LAYER
 70
     5
  0
LAYER
  2
0
 70
     0
 62
     7
  6
GEN
  0
LAYER
  2
ITEM_50
 70
    64
 62
     7
  6
CONTINUOUS
  0
LAYER
  2
ITEM_GSTR
 70
    64
 62
     6
  6
ITEM-STRICH
  0
LAYER
  2
ITEM_STP
 70
     0
 62
     4
  6
ITEM-STRICHPUNKT
  0
LAYER
  2
ITEM_HILFE
 70
    64
 62
     3
  6
CONTINUOUS
  0
ENDTAB
  0
TABLE
  2
STYLE
 70
     1
  0
STYLE
  2
STANDARD
 70
     0
 40
0.0
 41
1.0
 50
0.0
 71
     0
 42
3.5
  3
ISO8
  4

  0
ENDTAB
  0
TABLE
  2
VIEW
 70
     0
  0
ENDTAB
  0
TABLE
  2
UCS
 70
     0
  0
ENDTAB
  0
TABLE
  2
APPID
 70
     1
  0
APPID
  2
ACAD
 70
    64
  0
ENDTAB
  0
TABLE
  2
DIMSTYLE
 70
     0
  0
ENDTAB
  0
ENDSEC
  0
SECTION
  2
BLOCKS
  0
ENDSEC
  0
SECTION
  2
ENTITIES
  0
LINE
  8
ITEM_GSTR
 10
163.9038879999999
 20
133.7632483974479
 30
0.0
 11
167.9038879999999
 21
133.7632483974479
 31
0.0
  0
LINE
  8
ITEM_GSTR
 10
163.9038879999999
 20
142.7632483974479
 30
0.0
 11
163.9038879999999
 21
133.7632483974479
 31
0.0
  0
LINE
  8
ITEM_GSTR
 10
167.9038879999999
 20
133.7632483974479
 30
0.0
 11
167.9038879999999
 21
142.7632483974479
 31
0.0
  0
LINE
  8
ITEM_GSTR
 10
142.9038879999999
 20
133.7632483974479
 30
0.0
 11
142.9038879999999
 21
142.7632483974479
 31
0.0
  0
LINE
  8
ITEM_GSTR
 10
138.9038879999999
 20
133.7632483974479
 30
0.0
 11
142.9038879999999
 21
133.7632483974479
 31
0.0
  0
LINE
  8
ITEM_GSTR
 10
138.9038879999999
 20
142.7632483974479
 30
0.0
 11
138.9038879999999
 21
133.7632483974479
 31
0.0
  0
LINE
  8
ITEM_GSTR
 10
161.003888
 20
133.7632483974479
 30
0.0
 11
161.003888
 21
142.7632483974479
 31
0.0
  0
LINE
  8
ITEM_GSTR
 10
157.4038879999999
 20
142.7632483974479
 30
0.0
 11
157.4038879999999
 21
133.7632483974479
 31
0.0
  0
LINE
  8
ITEM_GSTR
 10
149.4038879999999
 20
133.7632483974479
 30
0.0
 11
149.4038879999999
 21
142.7632483974479
 31
0.0
  0
LINE
  8
ITEM_GSTR
 10
145.803888
 20
142.7632483974479
 30
0.0
 11
145.803888
 21
133.7632483974479
 31
0.0
  0
LINE
  8
ITEM_GSTR
 10
145.803888
 20
133.7632483974479
 30
0.0
 11
161.003888
 21
133.7632483974479
 31
0.0
  0
LINE
  8
ITEM_50
 10
173.4038879999999
 20
142.7632483974479
 30
0.0
 11
133.4038879999999
 21
142.7632483974479
 31
0.0
  0
CIRCLE
  8
ITEM_50
 10
166.9038869999999
 20
84.73108999999999
 30
0.0
 40
4.15
  0
CIRCLE
  8
ITEM_50
 10
166.9038869999999
 20
111.7310899999999
 30
0.0
 40
4.15
  0
CIRCLE
  8
ITEM_50
 10
139.9038879999999
 20
84.73108999999999
 30
0.0
 40
4.15
  0
CIRCLE
  8
ITEM_50
 10
139.9038879999999
 20
111.7310899999999
 30
0.0
 40
4.15
  0
ARC
  8
ITEM_50
 10
169.4038879999999
 20
114.2310899999999
 30
0.0
 40
4.0
 50
63.434949
 51
90.0
  0
ARC
  8
ITEM_50
 10
169.4038879999999
 20
114.2310899999999
 30
0.0
 40
4.0
 50
0.000018
 51
63.434949
  0
LINE
  8
ITEM_50
 10
173.4038879999999
 20
82.23108999999999
 30
0.0
 11
173.4038879999999
 21
114.2310899999999
 31
0.0
  0
ARC
  8
ITEM_50
 10
169.4038879999999
 20
82.23108999999999
 30
0.0
 40
4.0
 50
270.0
 51
0.0
  0
LINE
  8
ITEM_50
 10
137.4038879999999
 20
78.23108999999999
 30
0.0
 11
169.4038879999999
 21
78.23108999999999
 31
0.0
  0
ARC
  8
ITEM_50
 10
137.4038879999999
 20
82.23108999999999
 30
0.0
 40
4.0
 50
180.0
 51
270.0
  0
LINE
  8
ITEM_50
 10
133.4038879999999
 20
114.2310899999999
 30
0.0
 11
133.4038879999999
 21
82.23108999999999
 31
0.0
  0
ARC
  8
ITEM_50
 10
137.4038879999999
 20
114.2310899999999
 30
0.0
 40
4.0
 50
90.0
 51
116.5650509999999
  0
ARC
  8
ITEM_50
 10
137.4038879999999
 20
114.2310899999999
 30
0.0
 40
4.0
 50
116.5650509999999
 51
179.999973
  0
LINE
  8
ITEM_50
 10
137.4038869999999
 20
118.2310899999999
 30
0.0
 11
169.4038879999999
 21
118.2310899999999
 31
0.0
  0
ARC
  8
ITEM_50
 10
170.9038879999999
 20
144.2632483974479
 30
0.0
 40
2.5
 50
0.0
 51
90.0
  0
ARC
  8
ITEM_50
 10
135.9038879999999
 20
144.2632483974479
 30
0.0
 40
2.5
 50
90.0
 51
180.0
  0
LINE
  8
ITEM_50
 10
173.4038879999999
 20
144.2632483974479
 30
0.0
 11
173.4038879999999
 21
142.7632483974479
 31
0.0
  0
LINE
  8
ITEM_50
 10
135.9038879999999
 20
146.7632483974479
 30
0.0
 11
170.9038879999999
 21
146.7632483974479
 31
0.0
  0
LINE
  8
ITEM_50
 10
133.4038879999999
 20
142.7632483974479
 30
0.0
 11
133.4038879999999
 21
144.2632483974479
 31
0.0
  0
LINE
  8
ITEM_GSTR
 10
195.7385398981324
 20
80.73108999999999
 30
0.0
 11
186.7385398981324
 21
80.73108999999999
 31
0.0
  0
LINE
  8
ITEM_GSTR
 10
186.7385398981324
 20
80.73108999999999
 30
0.0
 11
186.7385398981324
 21
84.73108999999999
 31
0.0
  0
LINE
  8
ITEM_GSTR
 10
186.7385398981324
 20
84.73108999999999
 30
0.0
 11
195.7385398981324
 21
84.73108999999999
 31
0.0
  0
LINE
  8
ITEM_GSTR
 10
186.7385398981324
 20
82.73108999999999
 30
0.0
 11
195.7385398981324
 21
82.73108999999999
 31
0.0
  0
LINE
  8
ITEM_GSTR
 10
186.7385398981324
 20
113.63109
 30
0.0
 11
195.7385398981324
 21
113.63109
 31
0.0
  0
LINE
  8
ITEM_GSTR
 10
186.7385398981324
 20
111.63109
 30
0.0
 11
195.7385398981324
 21
111.63109
 31
0.0
  0
LINE
  8
ITEM_GSTR
 10
186.7385398981324
 20
115.63109
 30
0.0
 11
186.7385398981324
 21
111.63109
 31
0.0
  0
LINE
  8
ITEM_GSTR
 10
195.7385398981324
 20
115.63109
 30
0.0
 11
186.7385398981324
 21
115.63109
 31
0.0
  0
LINE
  8
ITEM_GSTR
 10
186.7385398981324
 20
90.63109
 30
0.0
 11
195.7385398981324
 21
90.63109
 31
0.0
  0
LINE
  8
ITEM_GSTR
 10
186.7385398981324
 20
105.8310899999999
 30
0.0
 11
186.7385398981324
 21
90.63109
 31
0.0
  0
LINE
  8
ITEM_GSTR
 10
195.7385398981324
 20
105.8310899999999
 30
0.0
 11
186.7385398981324
 21
105.8310899999999
 31
0.0
  0
LINE
  8
ITEM_50
 10
195.7385398981324
 20
78.23108999999999
 30
0.0
 11
195.7385398981324
 21
118.2310899999999
 31
0.0
  0
ARC
  8
ITEM_50
 10
197.2385398981324
 20
80.73108999999999
 30
0.0
 40
2.5
 50
270.0
 51
0.0
  0
ARC
  8
ITEM_50
 10
197.2385398981324
 20
115.7310899999999
 30
0.0
 40
2.5
 50
0.0
 51
90.0
  0
LINE
  8
ITEM_50
 10
197.2385398981324
 20
78.23108999999999
 30
0.0
 11
195.7385398981324
 21
78.23108999999999
 31
0.0
  0
LINE
  8
ITEM_50
 10
199.7385398981324
 20
115.7310899999999
 30
0.0
 11
199.7385398981324
 21
80.73108999999999
 31
0.0
  0
LINE
  8
ITEM_50
 10
195.7385398981324
 20
118.2310899999999
 30
0.0
 11
197.2385398981324
 21
118.2310899999999
 31
0.0
  0
POINT
  8
ITEM_HILFE
 10
133.4038879999999
 20
142.7632483974479
 30
0.0
  0
POINT
  8
ITEM_HILFE
 10
133.4038880000004
 20
78.23109
 30
0.0
  0
POINT
  8
ITEM_HILFE
 10
195.7385398981324
 20
78.23108999999999
 30
0.0
  0
POINT
  8
ITEM_HILFE
 10
153.4038874999999
 20
98.23108999999999
 30
0.0
  0
ENDSEC
  0
EOF
